You Me At Six – Bite My Tongue Bass Tab

Download the text file –  You Me At Six – Bite My Tongue

Title:  Bite My Tongue
Artist: You Me At Six
Tuning: EADG
Verse1
G|----------------------------------------------------------------------------------|
D|----------------------------------------------------------------------------------| x2
A|---------------------------------333333330000000033333333000005557~-------------\-|
E|-00000002222333330000000222233333-------------------------------------------------|
Chorus1
G|----------------------------------------------------------------------------------------------------------------------------------|
D|----------------------------------------------------------------------------------------------------------------------------------|
A|---------------------------------3-3-3---3---3-3-0-0-0---0---555---------------------------------0-0-0---0---0-0-3-3-3---3-55-355-|
E|-0-0-0---0---0-0-3-3-3---3---3-3---------------------------------0-0-0---0---0-0-3-3-3---3---3-3----------------------------------|
Verse2
G|------------------------------------------------------------------|
D|------------------------------------------------------------------|
A|---------------------------------333333333333333300000000000005~--|
E|-00-00-00--------00-00-00-----------------------------------------|

G|------------------------------------------------------------------|
D|----------7545402---------7545402---------------------------------|
A|---------------------------------333333333333333355555555555555~--|
E|-00-00-00--------00-00-00-----------------------------------------|
Chorus1
Bridge
G|--------------------------------------------------------------------------------------------------|
D|-------------------------------------------------------------------------------------222222222222-|
A|--------------------------------------------------------------------------------------------------|
E|-0-0-------------0-0-------------0-0-------------0-0-------------0-0-------------0-0--------------|

G|--------------------------------------------------------------------------------------------------|
D|--------------------------------------------------------------------------------------------------|
A|-----55---55-5555----55---55-5555----55---55-5555----55---55-5555----55---55-5555----55---55-5555-|
E|-0-0---00---0----0-0---00---0----0-0---00---0----0-0---00---0----0-0---00---0----0-0---00---0-----|

G|----------------------------------|
D|----------------------------------|
A|-----55---55-5555----55---55-5555-|
E|-0-0---00---0----0-0---00---0-----|
Chorus2
G|----------------------------------------------------------------------------------------------------------------------------------|
D|----------------------------------------------------------------------------------------------------------------------------------|
A|-5-------------------------------3-3-3---3---3-3-0-0-0---0---555-5-------------------------------0-0-0---0---0-0-3-3-3---3-55-355-|
E|---0-0---0---0-0-3-3-3---3---3-3-----------------------------------0-0---0---0-0-3-3-3---3---3-3----------------------------------|
Outro
G|----------|
D|----------|
A|-5\-------|
E|---0-0----|
Tabbed by David Green (david.green'at'tookitaway.co.uk)

 

Leave a Reply

Your email address will not be published. Required fields are marked *