Twin Atlantic – Free Bass Tab

Download the text file –  Twin Atlantic – Free

Title: Free
Artist: Twin Atlantic
Tuning: DADG
Intro (No Bass)
Verse1
G|---------------------------------3333333355555555-----------------|
D|-----------------5555555555555357---------------------------------|
A|-5555555555555357--------------------------------5555555555533333-|
D|------------------------------------------------------------------|
PreChorus1
G|------------------------------------------------------------------|
D|--------3-------------------------------3-------------------------|
A|-1111111-33333333----------------1111111-33333333-----------------|
D|-----------------3333333322222222----------------3333333322222222-|

G|--------------------------------------------------|
D|--------3-----------------------------------------|
A|-1111111-33333333----------------1-1-1-1-3-3-3-3--|
D|-----------------3333333322222222-----------------|
Chorus
G|------------------------------------------------------------------|
D|------------------------------------------------------------------|
A|-----------------0-00-01-11-11-1-----------------0-00-01-11-11-1--|
D|-3-33-30-00-00-0-----------------3-33-30-00-00-0------------------|

G|------------------------------------------------------------------|
D|------------------------------------------------------------------|
A|-----------------0-00-01-11-11-1-----------------0---1---3--------|
D|-3-33-30-00-00-0-----------------3-33-30-00-00-0------------------|
Verse2
G|---------------------------------3333333355555555-----------------|
D|-----------------5555555555555357---------------------------------|
A|-5555555555555357--------------------------------5555555555533333-|
D|------------------------------------------------------------------|

G|------------------------------------------------------------------|
D|------------------------------------------------------------------|
A|--------------------------------011111111333333335555555555533333-|
D|-0000000000000003555555555555535----------------------------------|
PreChorus2
G|------------------------------------------------------------------|
D|---------------------------------------------------------33333333-|
A|-1111111133333333----------------1111111133333333-----------------|
D|-----------------3333333322222222----------------33333333---------|

G|--------------------------------------------------|
D|--------3-----------------------------------------|
A|-1111111-33333333----------------1-1-1-1-3-3-3-3--|
D|-----------------3333333322222222-----------------|
Chorus
Bridge
G|--------------------------------------------------|
D|--------------------------------------------------|
A|-1-11---------5-55---------1-11---------5-7---0-3-|
D|------3-33-3-3-----3-33-3-3-----3-33-3-3----5-----|

G|--------------------------------------------------|
D|---------------000--222-57------------------3-5-7-|
A|-1-11----------------------1-11---------5-3-------|
D|------0-00-0-0------------------0-00-0-0----------|
Chorus
Tabbed by David Green (david.green'at'tookitaway.co.uk)

Your words