The Starting Line – Making Love To The Camera Bass Tab

Download the text file –  The Starting Line – Making Love To The Camera

Title: Making Love To The Camera
Artist: The Starting Line
Tuning: EADG
Intro
G|------------------------------------------------------------------|
D|----2-----2--11-----2-----2--1-1----------------------------------|
A|---------------------------------44-4-444-4--22--44-4-444-4--22---|
E|-00---000--------00---000-----------------------------------------|
Verse
G|------------------------------------------------------------------|
D|-22-2-222-2--11--22-2-222-2--1-1----------------------------------| x3
A|---------------------------------44-4-444-4--22--44-4-444-4--22---|
E|------------------------------------------------------------------|
Pre-Chorus
G|------------------------------------------------------------------|
D|------------------------------------------------------------------|
A|-0-0--0-00--00-0-4--4--44--------0-0--0-00--00-0-4--4--44---------|
E|-------------------------4--4--44------------------------44-4-4-4-|

G|----------------------------------------------------------|
D|----------------------------------------------------------|
A|-0-0--0-00--00-0-4--4--44--------2--2--224--4--447~-------|
E|-------------------------4--4--44-------------------------|
Chorus1
G|------------------------------------------------------------------|
D|------------------------------------------------------------------| x2
A|---------------------------------0-0-000-00-0-0-00-0-000-00-0-0-0-|
E|-00-02~----------00-02~-------------------------------------------|
Intro
Verse
Pre-Chorus2
G|------------------------------------------------------------------|
D|------------------------------------------------------------------|
A|-0-0--0-00--00-0-4--4--44--------0-0--0-00--00-0-4--4--44---------|
E|-------------------------4--4--44------------------------44-4-4-4-|

G|------------------------------------------------------------------|
D|------------------------------------------------------------------|
A|-0-0--0-00--00-0-4--4--44--------2--2--224--4--447~------7~-------|
E|-------------------------4--4--44---------------------------------|
Chorus2
G|------------------------------------------------------------------|
D|------------------------------------------------------------------| x2
A|---------------------------------0-0-000-00-0-0-02-2-222-22-2-2-2-|
E|-00-02~----------00-02~-------------------------------------------|
Bridge
G|------------------------------------------------------------------|
D|-----------------------------4-67---------------------------------|
A|-0~------0~--0---0~------0~------7-------7---070797------7--07079-|
E|------------------------------------------------------------------|

G|------------------------------------------------------------------|
D|-7--7--7--6-4---7--7--9--11-11-117-------7---070797------7--07079-|
A|--------------7---------------------------------------------------|
E|------------------------------------------------------------------|

G|----------------------------------|
D|----------------------------------|
A|-0-0--0-00--00-0-0-0--0-00--00-0--|
E|----------------------------------|
Chorus3
G|------------------------------------------------------------------|
D|------------------------------------------------------------------|
A|---------------------------------0-0-000-00-0-0-00-0-000-00-07090-|
E|-00-02--22-22-22-00-02--22-22-22----------------------------------|

G|------------------------------------------------------------------|
D|------------------------------------------------------------------|
A|---------------------------------0-0-000-00-0-0-00-0-000-00-0-0-0-|
E|-00-02--22-22-22-00-02--22-22-22----------------------------------|

G|----------------------------------|
D|-----------------------7-77-7-7-7-|
A|-0-0-000-00-0-0-00-0-00-----------|
E|----------------------------------|
Tabbed by David Green (david.green'at'tookitaway.co.uk)

Leave a Reply

Your email address will not be published. Required fields are marked *