Story Of The Year – And The Hero Will Drown Bass Tab

Download the text file –  Story Of The Year – And The Hero Will Drown

Title:  And The Hero Will Drown
Artist: Story Of The Year
Tuning: DADG
Intro
G|------------------|
D|-2002002002002020-| x4
A|------------------|
D|------------------|

G|------------------------------------------------------------------|
D|-200200200220232020020020020020202002002002002020----------22222--|
A|------------------------------------------------------------------|
D|--------------------------------------------------22222222--------|
Verse1
G|------------------------------------------------------------------|
D|------------------------------------------------------------------|
A|------------------------------------------------------------------|
D|---02----------3202-------------3202----------3202-22-222---0-00--|

G|------------------------------------------------------------------|
D|-------------------------------------------------2-22-2220-00-000-|
A|------------------------------------------------------------------|
D|-3202----------3202-------------3202----------320-----------------|
PreChorus1
G|----------------------------------|
D|----------------------------------|
A|-3~-----------5--3~---------------|
D|----------------------------------|
Chorus1
G|------------------------------------------------------------------|
D|------------------------------------------------------5-----7-----|
A|---------2-22-2223-33-3335-55-555--------2-22-2223-33--3--5---55--|
D|-2-22-222------------------------2-22-222-------------------------|
Verse2
G|------------------------------------------------------------------|
D|-------------------------------------------------2-22-2220-00-000-|
A|------------------------------------------------------------------|
D|-3202----------3202-------------3202----------320-----------------|

G|------------------------------------------------------------------|
D|------222222222----------------------222222222540-5-55-555--4-44--|
A|------------------------------------------------------------------|
D|-3202----------3202--2-2-02-020-3202------------------------------|
PreChorus2
G|----------------------------------|
D|----------------------------------|
A|-22-3~----------------------------|
D|----------------------------------|
Chorus2
G|------------------------------------------------------------------|
D|-----------------------------------------------------------7------|
A|---------2-22-2223-33-3335-55-555--------2-22-2223-33-33355-------|
D|-2-22-222------------------------2-22-222---------------------000-|

G|----------------------------------|
D|----------------------------------|
A|---------2-22-2--3-33-3--5-55-5---|
D|-2-22-2---------------------------|

G|--------------------------------------------------|
D|--------------------------------------------------|
A|---------2-22-2--3-33-333-333-3335-5554555455-----|
D|-2-22-2---------------------------------------320-|
Bridge
G|------------------------------------------------------------------|
D|------------------------------------------------------------------|
A|------------------------------------------------------------------|
D|-2-22----------------------------2-22----2-22----2-22----2~-------|

G|------------------------------------------------------------------|
D|------------------------------------------------------------------|
A|--------------------------------------------------------7777-7777-|
D|-2-22----2-22----2-22----2-22----2-22--0-2-22--0-2-22-0-----------|

G|------------------------------------------------------------------|
D|---------------------------------2-22-00-2-22-00-2-22-00-2-22-00--|
A|------------------------------------------------------------------|
D|-2-22-00-2-22-00-2-22-00-2-22-00----------------------------------|
PreChorus3
G|--------------------------------------------------|
D|--------------------------------------------------|
A|-3---3-3-5553-3--33--5553-3--3---5553-3--33--5557\|
D|--------------------------------------------------|
Chorus3
G|------------------------------------------------------------------|
D|------------------------------------------------------------------|
A|-------------------------------------------------3-33-333-3333555-|
D|------------------------------------------------------------------|

G|------------------------------------------------------------------|
D|------------------------------555---------------------------------|
A|---------2-22-2223-33-3335-55----7-------2-22-2223-33-3335-555----|
D|-2-22-222--------------------------22-222---------------------000-|

G|----------------------------------|
D|----------------------------------| x2
A|---------2-22-2--3-33-3--5-55-----|
D|-2-22-2-----------------------00--|

G|----------------------------------|
D|----------------------------7-----|
A|---------2-22-2223-33-3335-5--555-|
D|-2-22-222-------------------------|

G|--------------------------------------------------|
D|--------------------------------------------------|
A|---------2-22-2223-33333333333333999999999999-----|
D|-2-22-222-------------------------------------320-|
Outro
G|--------------------------------------------------------------------------|
D|--------------------------------------------------------------------------|
A|--------------------------------------------------------------------------|
D|-2-22----2-22----2-22----2-22----2-2-----2-2-----2-2-----2-2-----2-2------|
Tabbed by David Green (david.green'at'tookitaway.co.uk)

Your words