Gallows – Orchestra of Wolves Bass Tab

Download the text file – Gallows – Orchestra Of Wolves

Title: Orchestra Of Wolves
Artist: Gallows
Tuning: DADG
Verse1
G|------------------------------------|
D|------------------------------------|
A|---23-3--23-3-00---23-3--23-3-------|
D|-0--------------24------------2---4-|

G|----------------------------------|
D|----------------------------------|
A|-23-3--23-3-00---23-3--23-3-00----| x2
D|--------------24--------------20--|
Chorus
G|------------------------------------------------------------------|
D|------------------------------------------------------------------|
A|-5-5555553-332-22----------------5-55555533332-22-----------------|
D|-----------------444442--444442------------------4-4444444444442--|

G|------------------------------------------------------------------|
D|------------------------------------------------------------------|
A|---------2-222222--------0-002-22--------0-00---------------------| x2
D|-0-000000--------4-444444--------0-000000----2-224-4444444444442--|
Verse2
G|----------------------------------|
D|----------------------------------|
A|-23-3--23-3-00---23-3--23-3-00----|
D|--------------24--------------20--|

G|----------------------------------|
D|----------------------------------|
A|-23-3--23-3-00---23-3--23-3-------|
D|--------------24------------2---4-|

G|----------------------------------|
D|----------------------------------|
A|-23-3--23-3-00---23-3--23-3-00----|
D|--------------24--------------20--|
Chorus
Bridge
G|---------------------------------------------------|
D|---------------------------------------------------|
A|-----------------0---------------2---------------3-|
D|-4-------------------------------------------------|

G|-------------------------------------------------------------------|
D|-------------------------------------------------------------------|
A|-------------------------------------------------0-----------------|
D|-4---------------2---------------0-----------------------2-------4-|
Verse2
Outro
G|------------------------------------------------------------------|
D|------------------------------------------------------------------|
A|-0-------------------------------3---------------5----------------|
D|-----------------1------------------------------------------------|

G|------------------------------------------------------------------|
D|------------------------------------------------------------------|
A|-0000000000000000----------------33333333333333335555555555556666-|
D|-----------------1111111111111111---------------------------------|
Tabbed by David Green (david.green'at'tookitaway.co.uk)

Leave a Reply

Your email address will not be published. Required fields are marked *