Four Letter Lie – Nothing But A Ghost Bass Tab

Download the text file –  Four Letter Lie – Nothing But A Ghost

Title:  Nothing But A Ghost
Artist: Four Letter Lie
Tuning: EADG
Intro
G|----------------------------------------------------------------------------------|
D|----------------------------------------------------------------------------------| x2
A|----------------------------------------------------------------------------------|
E|-0-00-0--4---6---0-00-0--4---6---2-22-22-2-2-2-2-2-2-2-2-00-00-22-2-2-2-2-2-2-2-2-|
Verse1
G|------------------------------------------------------------------|
D|------------------------------------------------------------------|
A|-----------------------------------------2------------------------|
E|-4-------2-------0---------------4---------------0----------------|

G|------------------------------------------------------------------|
D|---------------------------------------------------------22222222-|
A|------------------------------------------------------------------|
E|-4444444422222222000000000000000044444444222222220000000----------|

G|------------------------------------------------------------------|
D|---------------------------------------------------------22222222-|
A|------------------------------------------------------------------|
E|-2222222244444444000/4--00--00-0-222222224444444400000000---------|

G|------------------------------------------------------------------|
D|------------------------------------------------------------------|
A|------------------------------------------------------------------|
E|-2222222244444444000/4--00--00-0-22222222444444440~-----/12~------|
Chorus1
G|------------------------------------------------------------------|
D|------------------------------------------------------------------|
A|------------------------------------------------------------------|
E|-4444-44-2222-22-0000-00-0000-00-4444-44-2222-22-0000-00-0000-00--|

G|----------------------------------------------------------------------------------|
D|-----------------------------------------------------------------222222222222-----|
A|----------------------------------------------------------------------------------|
E|-222222224444444400000000000000004444-44-2222-22-000000000000000/-----------------|
Verse2
G|----------------------------------------------------------------------------------|
D|----------------------------------------------------------------------------------|
A|----------------------------------------------------------------------------------|
E|---00-0--4---6---0-00-0--4---6---2-22-22-2-2-2-2-2-2-2-2-00-00-22-2-2-2-2-2-2-2-2-|

G|----------------------------------------------------------------------------------|
D|----------------------------------------------------------------------------------|
A|----------------------------------------------------------------------------------|
E|-0-------4---6---0-------4---6---2---------------------------0---2----------------|

G|----------------------------------------------------------------------------------|
D|-----------------------------------------------------------------4444-44-4444-44\-|
A|----------------------------------------------------------------------------------|
E|-0-------4---6---0-------4---6---2---------------------------0--------------------|

G|------------------------------------------------------------------|
D|------------------------------------------------------------------|
A|------------------------------------------------------------------|
E|-4444-44-2222-22-0000-00-0000-00-4444-44-2222-22-0000-00-0000-00--|

G|------------------------------------------------------------------|
D|------------------------------------------------------------------|
A|------------------------------------------------------------------|
E|-2222222244444444000/4--00--00-0-22222222444444440---------0--000-|
Chorus2
G|------------------------------------------------------------------|
D|---------------------------------------------------------22222222-|
A|------------------------------------------------------------------|
E|-4444-4442222-2220000-0000000-0004444-4442222-2220000-000---------|

G|----------------------------------------------------------------------------------|
D|----------------------------------------------------------------------------------|
A|----------------------------------------------------------------------------------|
E|-2222222244444444000000000000000044444444222222220000-00-0000-00--------------12\-|
Bridge
G|----------------------------------------------------------------------------------|
D|----------------------------------------------------------------------------------| x2
A|----------------------------------------------------------------------------------|
E|-00--00-------0--00------2---4---00--00-------0--00------2---4---00--00--4-2-0-2--|

G|----------|
D|----------|
A|----------|
E|-0-0-0-0--|
Chorus3
G|------------------------------------------------------------------|
D|------------------------------------------------------------------|
A|------------------------------------------------------------------|
E|-4444-4442222-2220000-0000000-0004444-4442222-2220000-0000000-000-|

G|------------------------------------------------------------------|
D|------------------------------------------------------------------|
A|------------------------------------------------------------------|
E|-222222224444444400000000000000004444-44-2222-22-0000-00-0000-00--|

G|------------------------------------------------------------------|
D|-----------------2-2-2-2-2-2-2-2----------------------------------|
A|---------------------------------------------------------22222222-|
E|-4-4-4-4-2-2-2-2-----------------4-4-4-4-2-2-2-2-0-0-0-0----------|

G|------------------------------------------------------------------|
D|------------------------------------------------------------------|
A|------------------------------------------------------------------|
E|-222222224444444400000000000000004444-44-2222-22-0000-00-0000-00--|
Outro
G|------------------------------------------|
D|------------------------------------------|
A|------------------------------------------|
D|-4444-44-2222-22-00--00----------00-22-00-|
Tabbed by David Green (david.green'at'tookitaway.co.uk)

Leave a Reply

Your email address will not be published. Required fields are marked *