Deaf Havana – Friends Like These Bass Tab

Download the text file –  Deaf Havana – Friends Like These

Title: Friends Like These
Artist: Deaf Havana
Tuning: DADG
Intro
G|----------------------------------|
D|----------------------------------| x3
A|----------------------------------|
D|-202-2-2-2-2-2-2-2-2-2-2-77776666-|

G|----------------------------------|
D|----------------------------------|
A|----------------------------------|
D|-202-2-2-2-2-2-2-2-2-2-2----------|
Chorus1
G|------------------------------------------------------------------|
D|--------------------------------------------------------------222-|
A|-3-33-333------------------------3-33-333--------5-55-555-555-----|
D|---------5-55-5550-00-0002-22-222--------5-55-555-----------------|

G|------------------------------------------------------------------|
D|------------------------------------------------------------------|
A|-3-33-333------------------------3-33-333--------5-55-555-555-555-|
D|---------5-55-5550-00-0002-22-222--------5-55-555-----------------|
Interlude (2 Bars)
Verse
G|----------------------------------|
D|----------------------------------| x4
A|-----5----5----5-----5----0-00000-|
D|-202---02---020--202---02---------|
Chorus2
G|------------------------------------------------------------------|
D|--------------------------------------------------------------222-|
A|-3~------------------------------3-33-333--------5-55-555-555-----|
D|---------5-55-5550-00-0002-22-222--------5-55-555-----------------|

G|------------------------------------------------------------------|
D|------------------------------------------------------------------|
A|-3-33-333------------------------3-33-333--------5-55-555-555-555-|
D|---------5-55-5550-00-0002-22-222--------5-55-555-----------------|
Bridge
G|------------------------------------------------------------------|
D|------------------------------------------------------------------| x2
A|-3-3-3-3-3-3-3-3--------------------------------------------------|
D|-----------------2-2-2-2-2-2-2-2-0-0-0-0-0-0-0-0-0-0-0-0-0-0-0-0--|
Interlude (8 Bars)
Chorus1
Outro
G|------------------------------------------------------------------|
D|-----------------202-2-2-2-2-2-2-----------------202-2-2-2-2------|
A|------------------------------------------------------------------|
D|-202-2-2-2-2-2-2-----------------202-2-2-2-2-2-2--------------222-|
Tabbed by David Green (david.green'at'tookitaway.co.uk)

Your words