A – Good Time Bass Tab

Download the text file –  A – Good Time

Title: Good Time
Artist: A
Tuning: DADG
Intro
G|------------------------------------------------------------------|
D|---------------0---------------0---------------0------------------| x2
A|-------2--0--2---------2--0--2---------2--0--2---3--3--3--3--3-3--|
D|-2--0------------2--0------------2--0-----------------------------|

G|------------------|
D|------------------|
A|-2--2--2----------|
D|---------14\------|
Verse1
G|-------------------------------------------------------5----------|
D|---------------0---------------0-2--0----------0----5-----5-------| x2
A|-------2--0--2---------2--0--2---------2--0--2---3-----------3-3--|
D|-2--0------------2--0---------------------------------------------|

G|------------------|
D|------------------|
A|-2--2-02--2--2-2--|
D|------------------|
Chorus
G|-------------------------------------------------------5----------|
D|---------------0---------------0---------------0----5-----5-------|
A|-------2--0--2---------2--0--2---------2--0--2---3-----------3-3--|
D|-2--0------------2--0------------2--0-----------------------------|

G|-------5-----------|
D|----5-------------|
A|-3-----------------|
D|-----------020-54--|

G|-------------------------------------------------------5----------|
D|---------------0---------------0---------------0----5-----5-------|
A|-------2--0--2---------2--0--2---------2--0--2---3-----------3-3--|
D|-2--0------------2--0------------2--0-----------------------------|

G|-------------------|
D|-------------------|
A|-2--2-02--2---/-\--|
D|-------------------|
Verse2
G|--------------------------------------------------------------0---|
D|------------------------------------------------------------02-2--|
A|------------------------------------------------------------------|
D|------------------------------------------------------------------|

G|-------------------------------------------------------5----------|
D|---------------0---------------0-2--0----------0----5-----5-------| x2
A|-------2--0--2---------2--0--2---------2--0--2---3-----------3-3--|
D|-2--0------------2--0---------------------------------------------|

G|------------------|
D|------------------|
A|-2--2-02--2--2-2--|
D|------------------|
Chorus
Bridge
G|---------------------------------------------------------------0--|
D|-00------0---0---22------2---2------55----55---5----55----55-02-2-|
A|------------------------------------------------------------------|
D|----0------0---0----2------2---2-55----55----5---55----55---------|

G|------------------------------------------------------------------|
D|-00------0---0---22------2---2------------------------------------|
A|---------------------------------3-3-03--3-03-3--2-2-02--2-02-2~--|
D|----0------0---0----2------2---2----------------------------------|
Bridge2
G|----------------------------------|
D|----------------------------------|
A|-------------------------------3--|
D|-2-0-----2-0-0-----2-0-----2-0----|
Interlude
PreChorus
G|----------------------------------|
D|----------------------------------|
A|-3--3--3--3--3-3-2--2--2----------|
D|--------------------------020-54--|
Chorus2
G|-------------------------------------------------------5----------|
D|-------------------------------0---------------0----5-----5-------|
A|-----------------------2--0--2---------2--0--2---3-----------3-3--|
D|-2--2------------2--0------------2--0-----------------------------|

G|-------------------|
D|-------------------|
A|-2--2--02----------|
D|-----------020-54--|

G|-------------------------------------------------------5----------|
D|---------------0---------------0---------------0-----5----5-------|
A|-------2--0--2---------2--0--2---------2--0--2---3-----------3-3--|
D|-2--0------------2--0------------2--0-----------------------------|

G|-----------------------5--------------------------|
D|--------------------5-----5-----------------------|
A|-2--2-02--2--2-2-3-----------3-3-2--2-02--2-2-----|
D|-----------------------------------------------2~-|
Tabbed by David Green (david.green'at'tookitaway.co.uk)

Your words