A Change Of Pace – Loose Lips Sink Ships Bass Tab

Download the text file –  A Change Of Pace – Loose Lips Sink Ships

Title: Loose Lips Sink Ships
Artist: A Change Of Pace
Tuning: DADG
Intro
G|------------------------------------------------------------------|
D|------------------------------------------------------------------|
A|------------------------------------------------------------------|
D|-0~------00--0---0~------00--0---0~------00--0---0-0-0-0-0--------|
Verse
G|------------------------------------------------------------------|
D|------------------------------------------------------------------|
A|-----1111----1111----111133333333----1111----1111----111133333333-|
D|-0--0----0--0----0--0------------0--0----0--0----0--0-------------|

G|------------------------------------------------------------------|
D|------------------------------------------------------------------|
A|-----------------1~--------------3~--------------5~---------------|
D|-0~---------------------------------------------------------------|

G|------------------------------------------------------------------|
D|------------------------------------------------------------------|
A|-----------------1~--------------3~--------------5~------87787787-|
D|-0~---------------------------------------------------------------|
Pre-Chorus
G|------------------------------------------------------------------|
D|------------------------------------------------------------------|
A|-----------------1111111111111111----------------1111111133333----|
D|-0000000000000000----------------0000000000000000-----------------|
Chorus1
G|------------------------------------------------------------------|
D|------------------------------------------------------------------|
A|-1111111133333333----------------1111111133333333-----------------|
D|-----------------00000-00000-00------------------00000-00000-00---|

G|------------------------------------------------------------------|
D|------------------------------------------------------------------|
A|-1111111133333333----------------1111111133333333-----------------|
D|-----------------00-00-00-00-0-0-----------------0~---------------|
Verse
Pre-Chorus
Chorus2
G|------------------------------------------------------------------|
D|------------------------------------------------------------------|
A|-1111111133333333----------------1111111133333333-----------------|
D|-----------------00000-00000-00------------------00000-00000-00---|

G|------------------------------------------------------------------|
D|------------------------------------------------------------------|
A|-1111111133333333----------------1111111133333333-----------------|
D|-----------------00-00-00-00-0-0-----------------3333333333333333-|
Bridge
G|------------------------------------------------------------------|
D|------------------------------------------------------------------| x2
A|-----------------1111111111111111----------------1111111133333333-|
D|-3333333333333333----------------0000000000000000-----------------|

G|------------------------------------------------------------------|
D|------------------------------------------------------------------|
A|------------------------------------------------------------------|
D|-0~------------------------------0~-------------------------------|
Chorus3
G|------------------------------------------------------------------|
D|------------------------------------------------------------------|
A|-1111111133333333----------------1111111133333333-----------------|
D|-----------------00000-00000-00------------------00000-00000-00---|

G|--------------------------------------------------|
D|--------------------------------------------------|
A|-1111111133333333----------------1111111133333333-|
D|-----------------00-00-00-00-0-0------------------|
Outro
G|------------------------------------------------------------------|
D|------------------------------------------------------------------|
A|----111---1113333---111---1113333---111---1113333---111---1113-33-|
D|-000---000-------000---000-------000---000-------000---000--------|

G|-----------------------------------|
D|-----------------------------------|
A|-----1111----1111----111133333333--|
D|-0--0----0--0----0--0------------0-|
Tabbed by David Green (david.green'at'tookitaway.co.uk)

Your words