A Change Of Pace - Know One Knowns Bass Tab

Download the text file -  A Change Of Pace - Know One Knowns

Title: Know One Knowns
Artist: A Change Of Pace
Tuning: DADG

Intro
G|-------------3333------------5555-|
D|-200000200000----200000200000-----|
A|----------------------------------|
D|----------------------------------|

G|-------------3333------------5~---|
D|-200000200000----200000200000-----|
A|----------------------------------|
D|----------------------------------|

Verse
G|-------------------------------------------------|
D|-------------------------------------------------|
A|-------------------------------------------------|
D|-000-0-000-0-000-0-000-0-000-0-000-0-000-0-000-0-| x4

Chorus
G|--------------------------|
D|--------------------------| x3
A|-1-11111-1111-------------|
D|-------------0-00000-0000-|

G|--------------------------|
D|--------------------------|
A|-1-11111-1111-------------|
D|-------------3-33331-1111-|

PostChorus
G|---------------------|
D|---------------------|
A|---------------------|
D|-000-0-000-0-000-0-0-|

Verse

Chorus

Bridge
G|--------------------------------------------------------------------------------------------------|
D|--------------------------------------------------------------------------------------------------|
A|-------------111111333333------------------------------------333333111111-------------------------|
D|-0-0-0-00----------------0-0-0-00----3333335555550-0-0-00----------------0-0-0-00----333333555555-|

G|---------------------------------------------|
D|---------------------------------------------|
A|---------------------------------------------|
D|-000-0-000-0-000-0-000-0-000-0-000-0-000-0-0-|

Interlude

PreChorus
G|--------------|
D|--------------|
A|-------888888-|
D|-333333-------|

Chorus

Outro
G|----------------------------------|
D|----------------------------------|
A|-------------1111------------3333-|
D|-200000200000----200000200000-----|

G|----------------------------------|
D|----------------------------------|
A|-------------1111------------5~---|
D|-200000200000----200000200000-----|

Tabbed by David Green (david.green'at'tookitaway.co.uk)